  0
SECTION
  2
ENTITIES
  0
LINE
  8
  0
 10
   45.00    
 20
   45.00    
 30
  0.0000E+00
 11
   45.00    
 21
  -45.00    
 31
  0.0000E+00
  0
LINE
  8
  0
 10
   45.00    
 20
  -45.00    
 30
  0.0000E+00
 11
  0.0000E+00
 21
  0.0000E+00
 31
  0.0000E+00
  0
LINE
  8
  0
 10
  0.0000E+00
 20
  0.0000E+00
 30
  0.0000E+00
 11
  -45.00    
 21
   45.00    
 31
  0.0000E+00
  0
LINE
  8
  0
 10
  -45.00    
 20
   45.00    
 30
  0.0000E+00
 11
   45.00    
 21
   45.00    
 31
  0.0000E+00
  0
LINE
  8
  0
 10
   45.00    
 20
   45.00    
 30
  0.0000E+00
 11
  0.0000E+00
 21
  0.0000E+00
 31
  -78.00    
  0
LINE
  8
  0
 10
  0.0000E+00
 20
  0.0000E+00
 30
  -78.00    
 11
  0.0000E+00
 21
  0.0000E+00
 31
  0.0000E+00
  0
LINE
  8
  0
 10
  0.0000E+00
 20
  0.0000E+00
 30
  0.0000E+00
 11
  -45.00    
 21
  -45.00    
 31
  0.0000E+00
  0
LINE
  8
  0
 10
  -45.00    
 20
  -45.00    
 30
  0.0000E+00
 11
   45.00    
 21
   45.00    
 31
  0.0000E+00
  0
LINE
  8
  0
 10
   45.00    
 20
  -45.00    
 30
  0.0000E+00
 11
  -45.00    
 21
  -45.00    
 31
  0.0000E+00
  0
LINE
  8
  0
 10
  -45.00    
 20
  -45.00    
 30
  0.0000E+00
 11
  -45.00    
 21
   45.00    
 31
  0.0000E+00
  0
LINE
  8
  0
 10
  -45.00    
 20
   45.00    
 30
  0.0000E+00
 11
  0.0000E+00
 21
  0.0000E+00
 31
  -78.00    
  0
LINE
  8
  0
 10
  0.0000E+00
 20
  0.0000E+00
 30
  -78.00    
 11
   45.00    
 21
  -45.00    
 31
  0.0000E+00
  0
ENDSEC
  0
EOF
