  0
SECTION
  2
HEADER
999
cube.dxf created by IVREAD.
999
Original data in cube.iv
  0
ENDSEC
  0
SECTION
  2
TABLES
  0
ENDSEC
  0
SECTION
  2
BLOCKS
  0
ENDSEC
  0
SECTION
  2
ENTITIES
  0
LINE
  8
  0
 10
 -0.5000    
 20
 -0.5000    
 30
   1.000    
 11
  0.5000    
 21
 -0.5000    
 31
   1.000    
  0
LINE
  8
  0
 10
  0.5000    
 20
 -0.5000    
 30
   1.000    
 11
  0.5000    
 21
  0.5000    
 31
   1.000    
  0
LINE
  8
  0
 10
  0.5000    
 20
  0.5000    
 30
   1.000    
 11
 -0.5000    
 21
  0.5000    
 31
   1.000    
  0
LINE
  8
  0
 10
 -0.5000    
 20
  0.5000    
 30
   1.000    
 11
 -0.5000    
 21
 -0.5000    
 31
   1.000    
  0
LINE
  8
  0
 10
  0.5000    
 20
 -0.5000    
 30
  0.0000E+00
 11
 -0.5000    
 21
 -0.5000    
 31
  0.0000E+00
  0
LINE
  8
  0
 10
 -0.5000    
 20
 -0.5000    
 30
  0.0000E+00
 11
 -0.5000    
 21
  0.5000    
 31
  0.0000E+00
  0
LINE
  8
  0
 10
 -0.5000    
 20
  0.5000    
 30
  0.0000E+00
 11
  0.5000    
 21
  0.5000    
 31
  0.0000E+00
  0
LINE
  8
  0
 10
  0.5000    
 20
  0.5000    
 30
  0.0000E+00
 11
  0.5000    
 21
 -0.5000    
 31
  0.0000E+00
  0
LINE
  8
  0
 10
 -0.5000    
 20
 -0.5000    
 30
  0.0000E+00
 11
 -0.5000    
 21
 -0.5000    
 31
   1.000    
  0
LINE
  8
  0
 10
 -0.5000    
 20
 -0.5000    
 30
   1.000    
 11
 -0.5000    
 21
  0.5000    
 31
   1.000    
  0
LINE
  8
  0
 10
 -0.5000    
 20
  0.5000    
 30
   1.000    
 11
 -0.5000    
 21
  0.5000    
 31
  0.0000E+00
  0
LINE
  8
  0
 10
 -0.5000    
 20
  0.5000    
 30
  0.0000E+00
 11
 -0.5000    
 21
 -0.5000    
 31
  0.0000E+00
  0
LINE
  8
  0
 10
  0.5000    
 20
 -0.5000    
 30
   1.000    
 11
  0.5000    
 21
 -0.5000    
 31
  0.0000E+00
  0
LINE
  8
  0
 10
  0.5000    
 20
 -0.5000    
 30
  0.0000E+00
 11
  0.5000    
 21
  0.5000    
 31
  0.0000E+00
  0
LINE
  8
  0
 10
  0.5000    
 20
  0.5000    
 30
  0.0000E+00
 11
  0.5000    
 21
  0.5000    
 31
   1.000    
  0
LINE
  8
  0
 10
  0.5000    
 20
  0.5000    
 30
   1.000    
 11
  0.5000    
 21
 -0.5000    
 31
   1.000    
  0
LINE
  8
  0
 10
 -0.5000    
 20
 -0.5000    
 30
  0.0000E+00
 11
  0.5000    
 21
 -0.5000    
 31
  0.0000E+00
  0
LINE
  8
  0
 10
  0.5000    
 20
 -0.5000    
 30
  0.0000E+00
 11
  0.5000    
 21
 -0.5000    
 31
   1.000    
  0
LINE
  8
  0
 10
  0.5000    
 20
 -0.5000    
 30
   1.000    
 11
 -0.5000    
 21
 -0.5000    
 31
   1.000    
  0
LINE
  8
  0
 10
 -0.5000    
 20
 -0.5000    
 30
   1.000    
 11
 -0.5000    
 21
 -0.5000    
 31
  0.0000E+00
  0
LINE
  8
  0
 10
 -0.5000    
 20
  0.5000    
 30
   1.000    
 11
  0.5000    
 21
  0.5000    
 31
   1.000    
  0
LINE
  8
  0
 10
  0.5000    
 20
  0.5000    
 30
   1.000    
 11
  0.5000    
 21
  0.5000    
 31
  0.0000E+00
  0
LINE
  8
  0
 10
  0.5000    
 20
  0.5000    
 30
  0.0000E+00
 11
 -0.5000    
 21
  0.5000    
 31
  0.0000E+00
  0
LINE
  8
  0
 10
 -0.5000    
 20
  0.5000    
 30
  0.0000E+00
 11
 -0.5000    
 21
  0.5000    
 31
   1.000    
  0
ENDSEC
  0
EOF
