  0
SECTION
  2
ENTITIES
  0
LINE
  8
0
 10
0.004042
 20
-0.091303
 30
0.014439
 11
0.007453
 21
-0.088746
 31
0.014536
  0
LINE
  8
0
 10
-0.002689
 20
-0.096351
 30
0.014476
 11
0.004042
 21
-0.091303
 31
0.014439
  0
LINE
  8
0
 10
-0.011156
 20
-0.102699
 30
0.014513
 11
-0.002689
 21
-0.096351
 31
0.014476
  0
LINE
  8
0
 10
-0.021838
 20
-0.110707
 30
0.014551
 11
-0.011156
 21
-0.102699
 31
0.014513
  0
LINE
  8
0
 10
-0.032129
 20
-0.118424
 30
0.014513
 11
-0.021838
 21
-0.110707
 31
0.014551
  0
LINE
  8
0
 10
-0.042899
 20
-0.1265
 30
0.014551
 11
-0.032129
 21
-0.118424
 31
0.014513
  0
LINE
  8
0
 10
-0.05391
 20
-0.134756
 30
0.014513
 11
-0.042899
 21
-0.1265
 31
0.014551
  0
LINE
  8
0
 10
-0.064888
 20
-0.142988
 30
0.014476
 11
-0.05391
 21
-0.134756
 31
0.014513
  0
LINE
  8
0
 10
-0.076438
 20
-0.151647
 30
0.014476
 11
-0.064888
 21
-0.142988
 31
0.014476
  0
LINE
  8
0
 10
-0.085502
 20
-0.158444
 30
0.014551
 11
-0.076438
 21
-0.151647
 31
0.014476
  0
LINE
  8
0
 10
-0.093041
 20
-0.164098
 30
0.014476
 11
-0.085502
 21
-0.158444
 31
0.014551
  0
LINE
  8
0
 10
-0.096871
 20
-0.166969
 30
0.014573
 11
-0.093041
 21
-0.164098
 31
0.014476
  0
LINE
  8
0
 10
-0.0877
 20
-0.158443
 30
-0.002693
 11
-0.088164
 21
-0.159741
 31
0.009188
  0
LINE
  8
0
 10
-0.090123
 20
-0.161099
 30
0.009188
 11
-0.088164
 21
-0.159741
 31
0.009188
  0
LINE
  8
0
 10
-0.0877
 20
-0.158443
 30
-0.002693
 11
-0.079942
 21
-0.16996
 31
-0.002693
  0
LINE
  8
0
 10
-0.090123
 20
-0.161099
 30
0.009188
 11
-0.090789
 21
-0.162467
 31
-0.002693
  0
LINE
  8
0
 10
-0.091168
 20
-0.160927
 30
-0.002693
 11
-0.090123
 21
-0.161099
 31
0.009188
  0
LINE
  8
0
 10
-0.090866
 20
-0.159382
 30
-0.002693
 11
-0.091168
 21
-0.160927
 31
-0.002693
  0
LINE
  8
0
 10
-0.090123
 20
-0.161099
 30
0.009188
 11
-0.090866
 21
-0.159382
 31
-0.002693
  0
LINE
  8
0
 10
-0.080451
 20
-0.171349
 30
0.009188
 11
-0.079942
 21
-0.16996
 31
-0.002693
  0
LINE
  8
0
 10
-0.088164
 20
-0.159741
 30
0.009188
 11
-0.080451
 21
-0.171349
 31
0.009188
  0
LINE
  8
0
 10
-0.089492
 20
-0.158529
 30
-0.002693
 11
-0.088164
 21
-0.159741
 31
0.009188
  0
LINE
  8
0
 10
-0.0877
 20
-0.158443
 30
-0.002693
 11
-0.089492
 21
-0.158529
 31
-0.002693
  0
LINE
  8
0
 10
-0.082569
 20
-0.172686
 30
0.009188
 11
-0.084111
 21
-0.17261
 31
-0.002693
  0
LINE
  8
0
 10
-0.082854
 20
-0.17362
 30
-0.002693
 11
-0.082569
 21
-0.172686
 31
0.009188
  0
LINE
  8
0
 10
-0.081266
 20
-0.173604
 30
-0.002693
 11
-0.082854
 21
-0.17362
 31
-0.002693
  0
LINE
  8
0
 10
-0.082569
 20
-0.172686
 30
0.009188
 11
-0.081266
 21
-0.173604
 31
-0.002693
  0
LINE
  8
0
 10
-0.080451
 20
-0.171349
 30
0.009188
 11
-0.082569
 21
-0.172686
 31
0.009188
  0
LINE
  8
0
 10
-0.080184
 20
-0.173003
 30
-0.002693
 11
-0.080451
 21
-0.171349
 31
0.009188
  0
LINE
  8
0
 10
-0.079721
 20
-0.171706
 30
-0.002693
 11
-0.080184
 21
-0.173003
 31
-0.002693
  0
LINE
  8
0
 10
-0.080451
 20
-0.171349
 30
0.009188
 11
-0.079721
 21
-0.171706
 31
-0.002693
  0
LINE
  8
0
 10
-0.082569
 20
-0.172686
 30
0.009188
 11
-0.080451
 21
-0.171349
 31
0.009188
  0
LINE
  8
0
 10
-0.090123
 20
-0.161099
 30
0.009188
 11
-0.082569
 21
-0.172686
 31
0.009188
  0
LINE
  8
0
 10
-0.079721
 20
-0.171706
 30
-0.002693
 11
-0.079942
 21
-0.16996
 31
-0.002693
  0
LINE
  8
0
 10
-0.080184
 20
-0.173003
 30
-0.002693
 11
-0.079721
 21
-0.171706
 31
-0.002693
  0
LINE
  8
0
 10
-0.081266
 20
-0.173604
 30
-0.002693
 11
-0.080184
 21
-0.173003
 31
-0.002693
  0
LINE
  8
0
 10
-0.082854
 20
-0.17362
 30
-0.002693
 11
-0.081266
 21
-0.173604
 31
-0.002693
  0
LINE
  8
0
 10
-0.084111
 20
-0.17261
 30
-0.002693
 11
-0.082854
 21
-0.17362
 31
-0.002693
  0
LINE
  8
0
 10
-0.090789
 20
-0.162467
 30
-0.002693
 11
-0.084111
 21
-0.17261
 31
-0.002693
  0
LINE
  8
0
 10
-0.091168
 20
-0.160927
 30
-0.002693
 11
-0.090789
 21
-0.162467
 31
-0.002693
  0
LINE
  8
0
 10
-0.090866
 20
-0.159382
 30
-0.002693
 11
-0.091168
 21
-0.160927
 31
-0.002693
  0
LINE
  8
0
 10
-0.089492
 20
-0.158529
 30
-0.002693
 11
-0.090866
 21
-0.159382
 31
-0.002693
  0
LINE
  8
0
 10
-0.0877
 20
-0.158443
 30
-0.002693
 11
-0.089492
 21
-0.158529
 31
-0.002693
  0
LINE
  8
0
 10
0.001362
 20
-0.091189
 30
-0.001109
 11
0.000899
 21
-0.092487
 31
0.009188
  0
LINE
  8
0
 10
-0.00106
 20
-0.093844
 30
0.009188
 11
0.000899
 21
-0.092487
 31
0.009188
  0
LINE
  8
0
 10
0.001362
 20
-0.091189
 30
-0.001109
 11
0.00912
 21
-0.102707
 31
-0.001109
  0
LINE
  8
0
 10
-0.00106
 20
-0.093844
 30
0.009188
 11
-0.001727
 21
-0.095211
 31
-0.001109
  0
LINE
  8
0
 10
-0.002105
 20
-0.093672
 30
-0.001109
 11
-0.00106
 21
-0.093844
 31
0.009188
  0
LINE
  8
0
 10
-0.001803
 20
-0.092126
 30
-0.001109
 11
-0.002105
 21
-0.093672
 31
-0.001109
  0
LINE
  8
0
 10
-0.00106
 20
-0.093844
 30
0.009188
 11
-0.001803
 21
-0.092126
 31
-0.001109
  0
LINE
  8
0
 10
0.008612
 20
-0.104095
 30
0.009188
 11
0.00912
 21
-0.102707
 31
-0.001109
  0
LINE
  8
0
 10
0.000899
 20
-0.092487
 30
0.009188
 11
0.008612
 21
-0.104095
 31
0.009188
  0
LINE
  8
0
 10
-0.000428
 20
-0.091274
 30
-0.001109
 11
0.000899
 21
-0.092487
 31
0.009188
  0
LINE
  8
0
 10
0.001362
 20
-0.091189
 30
-0.001109
 11
-0.000428
 21
-0.091274
 31
-0.001109
  0
LINE
  8
0
 10
0.006495
 20
-0.105431
 30
0.009188
 11
0.004952
 21
-0.105356
 31
-0.001109
  0
LINE
  8
0
 10
0.006208
 20
-0.106364
 30
-0.001109
 11
0.006495
 21
-0.105431
 31
0.009188
  0
LINE
  8
0
 10
0.007796
 20
-0.106349
 30
-0.001109
 11
0.006208
 21
-0.106364
 31
-0.001109
  0
LINE
  8
0
 10
0.006495
 20
-0.105431
 30
0.009188
 11
0.007796
 21
-0.106349
 31
-0.001109
  0
LINE
  8
0
 10
0.008612
 20
-0.104095
 30
0.009188
 11
0.006495
 21
-0.105431
 31
0.009188
  0
LINE
  8
0
 10
0.008879
 20
-0.105748
 30
-0.001109
 11
0.008612
 21
-0.104095
 31
0.009188
  0
LINE
  8
0
 10
0.009342
 20
-0.10445
 30
-0.001109
 11
0.008879
 21
-0.105748
 31
-0.001109
  0
LINE
  8
0
 10
0.008612
 20
-0.104095
 30
0.009188
 11
0.009342
 21
-0.10445
 31
-0.001109
  0
LINE
  8
0
 10
0.006495
 20
-0.105431
 30
0.009188
 11
0.008612
 21
-0.104095
 31
0.009188
  0
LINE
  8
0
 10
-0.00106
 20
-0.093844
 30
0.009188
 11
0.006495
 21
-0.105431
 31
0.009188
  0
LINE
  8
0
 10
0.009342
 20
-0.10445
 30
-0.001109
 11
0.00912
 21
-0.102707
 31
-0.001109
  0
LINE
  8
0
 10
0.008879
 20
-0.105748
 30
-0.001109
 11
0.009342
 21
-0.10445
 31
-0.001109
  0
LINE
  8
0
 10
0.007796
 20
-0.106349
 30
-0.001109
 11
0.008879
 21
-0.105748
 31
-0.001109
  0
LINE
  8
0
 10
0.006208
 20
-0.106364
 30
-0.001109
 11
0.007796
 21
-0.106349
 31
-0.001109
  0
LINE
  8
0
 10
0.004952
 20
-0.105356
 30
-0.001109
 11
0.006208
 21
-0.106364
 31
-0.001109
  0
LINE
  8
0
 10
-0.001727
 20
-0.095211
 30
-0.001109
 11
0.004952
 21
-0.105356
 31
-0.001109
  0
LINE
  8
0
 10
-0.002105
 20
-0.093672
 30
-0.001109
 11
-0.001727
 21
-0.095211
 31
-0.001109
  0
LINE
  8
0
 10
-0.001803
 20
-0.092126
 30
-0.001109
 11
-0.002105
 21
-0.093672
 31
-0.001109
  0
LINE
  8
0
 10
-0.000428
 20
-0.091274
 30
-0.001109
 11
-0.001803
 21
-0.092126
 31
-0.001109
  0
LINE
  8
0
 10
0.001362
 20
-0.091189
 30
-0.001109
 11
-0.000428
 21
-0.091274
 31
-0.001109
  0
LINE
  8
0
 10
0.011409
 20
-0.102736
 30
0.014391
 11
0.01482
 21
-0.100179
 31
0.014489
  0
LINE
  8
0
 10
0.004678
 20
-0.107783
 30
0.01443
 11
0.011409
 21
-0.102736
 31
0.014391
  0
LINE
  8
0
 10
-0.003789
 20
-0.114132
 30
0.014466
 11
0.004678
 21
-0.107783
 31
0.01443
  0
LINE
  8
0
 10
-0.014469
 20
-0.12214
 30
0.014503
 11
-0.003789
 21
-0.114132
 31
0.014466
  0
LINE
  8
0
 10
-0.024762
 20
-0.129857
 30
0.014466
 11
-0.014469
 21
-0.12214
 31
0.014503
  0
LINE
  8
0
 10
-0.035532
 20
-0.137933
 30
0.014503
 11
-0.024762
 21
-0.129857
 31
0.014466
  0
LINE
  8
0
 10
-0.046541
 20
-0.146189
 30
0.014466
 11
-0.035532
 21
-0.137933
 31
0.014503
  0
LINE
  8
0
 10
-0.057521
 20
-0.154422
 30
0.01443
 11
-0.046541
 21
-0.146189
 31
0.014466
  0
LINE
  8
0
 10
-0.069069
 20
-0.16308
 30
0.01443
 11
-0.057521
 21
-0.154422
 31
0.01443
  0
LINE
  8
0
 10
-0.078135
 20
-0.169877
 30
0.014503
 11
-0.069069
 21
-0.16308
 31
0.01443
  0
LINE
  8
0
 10
-0.085674
 20
-0.175531
 30
0.01443
 11
-0.078135
 21
-0.169877
 31
0.014503
  0
LINE
  8
0
 10
-0.089503
 20
-0.178402
 30
0.014527
 11
-0.085674
 21
-0.175531
 31
0.01443
  0
LINE
  8
0
 10
0.001416
 20
-0.110228
 30
0.025254
 11
0.000781
 21
-0.093749
 31
0.020553
  0
LINE
  8
0
 10
-0.016452
 20
-0.106669
 30
0.031317
 11
0.001416
 21
-0.110228
 31
0.025254
  0
LINE
  8
0
 10
-0.019645
 20
-0.126021
 30
0.03542
 11
-0.016452
 21
-0.106669
 31
0.031317
  0
LINE
  8
0
 10
-0.037035
 20
-0.122103
 30
0.037298
 11
-0.019645
 21
-0.126021
 31
0.03542
  0
LINE
  8
0
 10
-0.041186
 20
-0.142173
 30
0.037214
 11
-0.037035
 21
-0.122103
 31
0.037298
  0
LINE
  8
0
 10
-0.059055
 20
-0.138615
 30
0.035504
 11
-0.041186
 21
-0.142173
 31
0.037214
  0
LINE
  8
0
 10
-0.063205
 20
-0.158683
 30
0.031234
 11
-0.059055
 21
-0.138615
 31
0.035504
  0
LINE
  8
0
 10
-0.081553
 20
-0.155484
 30
0.025337
 11
-0.063205
 21
-0.158683
 31
0.031234
  0
LINE
  8
0
 10
-0.081875
 20
-0.172682
 30
0.02047
 11
-0.081553
 21
-0.155484
 31
0.025337
  0
LINE
  8
0
 10
-0.089242
 20
-0.161249
 30
0.020516
 11
-0.081875
 21
-0.172682
 31
0.02047
  0
LINE
  8
0
 10
-0.074186
 20
-0.166916
 30
0.025291
 11
-0.089242
 21
-0.161249
 31
0.020516
  0
LINE
  8
0
 10
-0.070574
 20
-0.14725
 30
0.03128
 11
-0.074186
 21
-0.166916
 31
0.025291
  0
LINE
  8
0
 10
-0.051688
 20
-0.150048
 30
0.035457
 11
-0.070574
 21
-0.14725
 31
0.03128
  0
LINE
  8
0
 10
-0.048554
 20
-0.13074
 30
0.03726
 11
-0.051688
 21
-0.150048
 31
0.035457
  0
LINE
  8
0
 10
-0.029668
 20
-0.133536
 30
0.037251
 11
-0.048554
 21
-0.13074
 31
0.03726
  0
LINE
  8
0
 10
-0.027012
 20
-0.114588
 30
0.035466
 11
-0.029668
 21
-0.133536
 31
0.037251
  0
LINE
  8
0
 10
-0.009085
 20
-0.118102
 30
0.031271
 11
-0.027012
 21
-0.114588
 31
0.035466
  0
LINE
  8
0
 10
-0.005951
 20
-0.098795
 30
0.0253
 11
-0.009085
 21
-0.118102
 31
0.031271
  0
LINE
  8
0
 10
0.008149
 20
-0.105182
 30
0.020507
 11
-0.005951
 21
-0.098795
 31
0.0253
  0
LINE
  8
0
 10
0.000781
 20
-0.093749
 30
0.020553
 11
0.008149
 21
-0.105182
 31
0.020507
  0
LINE
  8
0
 10
0.004042
 20
-0.091303
 30
0.014439
 11
0.003952
 21
-0.09137
 31
0.009355
  0
LINE
  8
0
 10
-0.002689
 20
-0.096351
 30
0.014476
 11
-0.00266
 21
-0.096328
 31
0.009541
  0
LINE
  8
0
 10
-0.011156
 20
-0.102699
 30
0.014513
 11
-0.011186
 21
-0.102721
 31
0.009355
  0
LINE
  8
0
 10
-0.021838
 20
-0.110707
 30
0.014551
 11
-0.021867
 21
-0.11073
 31
0.009392
  0
LINE
  8
0
 10
-0.032129
 20
-0.118424
 30
0.014513
 11
-0.032129
 21
-0.118424
 31
0.009392
  0
LINE
  8
0
 10
-0.042899
 20
-0.1265
 30
0.014551
 11
-0.042929
 21
-0.126523
 31
0.009392
  0
LINE
  8
0
 10
-0.05391
 20
-0.134756
 30
0.014513
 11
-0.053969
 21
-0.134801
 31
0.009392
  0
LINE
  8
0
 10
-0.064888
 20
-0.142988
 30
0.014476
 11
-0.064919
 21
-0.14301
 31
0.009355
  0
LINE
  8
0
 10
-0.076438
 20
-0.151647
 30
0.014476
 11
-0.076438
 21
-0.151647
 31
0.00943
  0
LINE
  8
0
 10
-0.085502
 20
-0.158444
 30
0.014551
 11
-0.085533
 21
-0.158467
 31
0.009392
  0
LINE
  8
0
 10
-0.093041
 20
-0.164098
 30
0.014476
 11
-0.093012
 21
-0.164076
 31
0.009541
  0
LINE
  8
0
 10
-0.089242
 20
-0.161249
 30
0.020516
 11
-0.089242
 21
-0.161249
 31
0.00943
  0
LINE
  8
0
 10
-0.081553
 20
-0.155484
 30
0.025337
 11
-0.081553
 21
-0.155484
 31
0.009392
  0
LINE
  8
0
 10
-0.070574
 20
-0.14725
 30
0.03128
 11
-0.070603
 21
-0.147273
 31
0.00943
  0
LINE
  8
0
 10
-0.059055
 20
-0.138615
 30
0.035504
 11
-0.059115
 21
-0.138659
 31
0.009392
  0
LINE
  8
0
 10
-0.048554
 20
-0.13074
 30
0.03726
 11
-0.048554
 21
-0.13074
 31
0.00943
  0
LINE
  8
0
 10
-0.037035
 20
-0.122103
 30
0.037298
 11
-0.037095
 21
-0.122148
 31
0.009392
  0
LINE
  8
0
 10
-0.027012
 20
-0.114588
 30
0.035466
 11
-0.027043
 21
-0.114611
 31
0.00943
  0
LINE
  8
0
 10
-0.016452
 20
-0.106669
 30
0.031317
 11
-0.016482
 21
-0.106692
 31
0.009392
  0
LINE
  8
0
 10
-0.005951
 20
-0.098795
 30
0.0253
 11
-0.00592
 21
-0.098773
 31
0.00943
  0
LINE
  8
0
 10
0.000781
 20
-0.093749
 30
0.020553
 11
0.000721
 21
-0.093794
 31
0.009392
  0
LINE
  8
0
 10
-0.093041
 20
-0.164098
 30
0.014476
 11
-0.096931
 21
-0.167014
 31
0.009392
  0
LINE
  8
0
 10
-0.089242
 20
-0.161249
 30
0.00943
 11
-0.093041
 21
-0.164098
 31
0.014476
  0
LINE
  8
0
 10
-0.085502
 20
-0.158444
 30
0.014551
 11
-0.089242
 21
-0.161249
 31
0.00943
  0
LINE
  8
0
 10
-0.081553
 20
-0.155484
 30
0.009392
 11
-0.085502
 21
-0.158444
 31
0.014551
  0
LINE
  8
0
 10
-0.076438
 20
-0.151647
 30
0.014476
 11
-0.081553
 21
-0.155484
 31
0.009392
  0
LINE
  8
0
 10
-0.070603
 20
-0.147273
 30
0.00943
 11
-0.076438
 21
-0.151647
 31
0.014476
  0
LINE
  8
0
 10
-0.064888
 20
-0.142988
 30
0.014476
 11
-0.070603
 21
-0.147273
 31
0.00943
  0
LINE
  8
0
 10
-0.059115
 20
-0.138659
 30
0.009392
 11
-0.064888
 21
-0.142988
 31
0.014476
  0
LINE
  8
0
 10
-0.05391
 20
-0.134756
 30
0.014513
 11
-0.059115
 21
-0.138659
 31
0.009392
  0
LINE
  8
0
 10
-0.048554
 20
-0.13074
 30
0.00943
 11
-0.05391
 21
-0.134756
 31
0.014513
  0
LINE
  8
0
 10
-0.042899
 20
-0.1265
 30
0.014551
 11
-0.048554
 21
-0.13074
 31
0.00943
  0
LINE
  8
0
 10
-0.037095
 20
-0.122148
 30
0.009392
 11
-0.042899
 21
-0.1265
 31
0.014551
  0
LINE
  8
0
 10
-0.032129
 20
-0.118424
 30
0.014513
 11
-0.037095
 21
-0.122148
 31
0.009392
  0
LINE
  8
0
 10
-0.027043
 20
-0.114611
 30
0.00943
 11
-0.032129
 21
-0.118424
 31
0.014513
  0
LINE
  8
0
 10
-0.021838
 20
-0.110707
 30
0.014551
 11
-0.027043
 21
-0.114611
 31
0.00943
  0
LINE
  8
0
 10
-0.016482
 20
-0.106692
 30
0.009392
 11
-0.021838
 21
-0.110707
 31
0.014551
  0
LINE
  8
0
 10
-0.011156
 20
-0.102699
 30
0.014513
 11
-0.016482
 21
-0.106692
 31
0.009392
  0
LINE
  8
0
 10
-0.00592
 20
-0.098773
 30
0.00943
 11
-0.011156
 21
-0.102699
 31
0.014513
  0
LINE
  8
0
 10
-0.002689
 20
-0.096351
 30
0.014476
 11
-0.00592
 21
-0.098773
 31
0.00943
  0
LINE
  8
0
 10
0.000721
 20
-0.093794
 30
0.009392
 11
-0.002689
 21
-0.096351
 31
0.014476
  0
LINE
  8
0
 10
0.004042
 20
-0.091303
 30
0.014439
 11
0.000721
 21
-0.093794
 31
0.009392
  0
LINE
  8
0
 10
0.007512
 20
-0.088701
 30
0.00943
 11
0.004042
 21
-0.091303
 31
0.014439
  0
LINE
  8
0
 10
0.007453
 20
-0.088746
 30
0.014536
 11
0.007512
 21
-0.088701
 31
0.00943
  0
LINE
  8
0
 10
0.003952
 20
-0.09137
 30
0.009355
 11
0.007512
 21
-0.088701
 31
0.00943
  0
LINE
  8
0
 10
0.000721
 20
-0.093794
 30
0.009392
 11
0.003952
 21
-0.09137
 31
0.009355
  0
LINE
  8
0
 10
-0.00266
 20
-0.096328
 30
0.009541
 11
0.000721
 21
-0.093794
 31
0.009392
  0
LINE
  8
0
 10
-0.00592
 20
-0.098773
 30
0.00943
 11
-0.00266
 21
-0.096328
 31
0.009541
  0
LINE
  8
0
 10
-0.011186
 20
-0.102721
 30
0.009355
 11
-0.00592
 21
-0.098773
 31
0.00943
  0
LINE
  8
0
 10
-0.016482
 20
-0.106692
 30
0.009392
 11
-0.011186
 21
-0.102721
 31
0.009355
  0
LINE
  8
0
 10
-0.021867
 20
-0.11073
 30
0.009392
 11
-0.016482
 21
-0.106692
 31
0.009392
  0
LINE
  8
0
 10
-0.027043
 20
-0.114611
 30
0.00943
 11
-0.021867
 21
-0.11073
 31
0.009392
  0
LINE
  8
0
 10
-0.032129
 20
-0.118424
 30
0.009392
 11
-0.027043
 21
-0.114611
 31
0.00943
  0
LINE
  8
0
 10
-0.037095
 20
-0.122148
 30
0.009392
 11
-0.032129
 21
-0.118424
 31
0.009392
  0
LINE
  8
0
 10
-0.042929
 20
-0.126523
 30
0.009392
 11
-0.037095
 21
-0.122148
 31
0.009392
  0
LINE
  8
0
 10
-0.048554
 20
-0.13074
 30
0.00943
 11
-0.042929
 21
-0.126523
 31
0.009392
  0
LINE
  8
0
 10
-0.053969
 20
-0.134801
 30
0.009392
 11
-0.048554
 21
-0.13074
 31
0.00943
  0
LINE
  8
0
 10
-0.059115
 20
-0.138659
 30
0.009392
 11
-0.053969
 21
-0.134801
 31
0.009392
  0
LINE
  8
0
 10
-0.064919
 20
-0.14301
 30
0.009355
 11
-0.059115
 21
-0.138659
 31
0.009392
  0
LINE
  8
0
 10
-0.070603
 20
-0.147273
 30
0.00943
 11
-0.064919
 21
-0.14301
 31
0.009355
  0
LINE
  8
0
 10
-0.076438
 20
-0.151647
 30
0.00943
 11
-0.070603
 21
-0.147273
 31
0.00943
  0
LINE
  8
0
 10
-0.081553
 20
-0.155484
 30
0.009392
 11
-0.076438
 21
-0.151647
 31
0.00943
  0
LINE
  8
0
 10
-0.085533
 20
-0.158467
 30
0.009392
 11
-0.081553
 21
-0.155484
 31
0.009392
  0
LINE
  8
0
 10
-0.089242
 20
-0.161249
 30
0.00943
 11
-0.085533
 21
-0.158467
 31
0.009392
  0
LINE
  8
0
 10
-0.093012
 20
-0.164076
 30
0.009541
 11
-0.089242
 21
-0.161249
 31
0.00943
  0
LINE
  8
0
 10
-0.096931
 20
-0.167014
 30
0.009392
 11
-0.093012
 21
-0.164076
 31
0.009541
  0
LINE
  8
0
 10
-0.096871
 20
-0.166969
 30
0.014573
 11
-0.096931
 21
-0.167014
 31
0.009392
  0
LINE
  8
0
 10
-0.089242
 20
-0.161249
 30
0.020516
 11
-0.096871
 21
-0.166969
 31
0.014573
  0
LINE
  8
0
 10
-0.081553
 20
-0.155484
 30
0.025337
 11
-0.089242
 21
-0.161249
 31
0.020516
  0
LINE
  8
0
 10
-0.070574
 20
-0.14725
 30
0.03128
 11
-0.081553
 21
-0.155484
 31
0.025337
  0
LINE
  8
0
 10
-0.059055
 20
-0.138615
 30
0.035504
 11
-0.070574
 21
-0.14725
 31
0.03128
  0
LINE
  8
0
 10
-0.048554
 20
-0.13074
 30
0.03726
 11
-0.059055
 21
-0.138615
 31
0.035504
  0
LINE
  8
0
 10
-0.037035
 20
-0.122103
 30
0.037298
 11
-0.048554
 21
-0.13074
 31
0.03726
  0
LINE
  8
0
 10
-0.027012
 20
-0.114588
 30
0.035466
 11
-0.037035
 21
-0.122103
 31
0.037298
  0
LINE
  8
0
 10
-0.016452
 20
-0.106669
 30
0.031317
 11
-0.027012
 21
-0.114588
 31
0.035466
  0
LINE
  8
0
 10
-0.005951
 20
-0.098795
 30
0.0253
 11
-0.016452
 21
-0.106669
 31
0.031317
  0
LINE
  8
0
 10
0.000781
 20
-0.093749
 30
0.020553
 11
-0.005951
 21
-0.098795
 31
0.0253
  0
LINE
  8
0
 10
0.007453
 20
-0.088746
 30
0.014536
 11
0.000781
 21
-0.093749
 31
0.020553
  0
LINE
  8
0
 10
0.011409
 20
-0.102736
 30
0.014391
 11
0.011319
 21
-0.102803
 31
0.009309
  0
LINE
  8
0
 10
0.004678
 20
-0.107783
 30
0.01443
 11
0.004709
 21
-0.107761
 31
0.009495
  0
LINE
  8
0
 10
-0.003789
 20
-0.114132
 30
0.014466
 11
-0.003819
 21
-0.114154
 31
0.009309
  0
LINE
  8
0
 10
-0.014469
 20
-0.12214
 30
0.014503
 11
-0.014499
 21
-0.122163
 31
0.009346
  0
LINE
  8
0
 10
-0.024762
 20
-0.129857
 30
0.014466
 11
-0.024762
 21
-0.129857
 31
0.009346
  0
LINE
  8
0
 10
-0.035532
 20
-0.137933
 30
0.014503
 11
-0.035561
 21
-0.137956
 31
0.009346
  0
LINE
  8
0
 10
-0.046541
 20
-0.146189
 30
0.014466
 11
-0.046602
 21
-0.146234
 31
0.009346
  0
LINE
  8
0
 10
-0.057521
 20
-0.154422
 30
0.01443
 11
-0.057552
 21
-0.154445
 31
0.009309
  0
LINE
  8
0
 10
-0.069069
 20
-0.16308
 30
0.01443
 11
-0.069069
 21
-0.16308
 31
0.009383
  0
LINE
  8
0
 10
-0.078135
 20
-0.169877
 30
0.014503
 11
-0.078164
 21
-0.1699
 31
0.014573
  0
LINE
  8
0
 10
-0.085674
 20
-0.175531
 30
0.01443
 11
-0.085644
 21
-0.175509
 31
0.009495
  0
LINE
  8
0
 10
-0.081875
 20
-0.172682
 30
0.02047
 11
-0.081875
 21
-0.172682
 31
0.009383
  0
LINE
  8
0
 10
-0.074186
 20
-0.166916
 30
0.025291
 11
-0.074186
 21
-0.166916
 31
0.009346
  0
LINE
  8
0
 10
-0.063205
 20
-0.158683
 30
0.031234
 11
-0.063236
 21
-0.158706
 31
0.009383
  0
LINE
  8
0
 10
-0.051688
 20
-0.150048
 30
0.035457
 11
-0.051747
 21
-0.150092
 31
0.009346
  0
LINE
  8
0
 10
-0.041186
 20
-0.142173
 30
0.037214
 11
-0.041186
 21
-0.142173
 31
0.009383
  0
LINE
  8
0
 10
-0.029668
 20
-0.133536
 30
0.037251
 11
-0.029728
 21
-0.133581
 31
0.009346
  0
LINE
  8
0
 10
-0.019645
 20
-0.126021
 30
0.03542
 11
-0.019675
 21
-0.126044
 31
0.009383
  0
LINE
  8
0
 10
-0.009085
 20
-0.118102
 30
0.031271
 11
-0.009114
 21
-0.118125
 31
0.009346
  0
LINE
  8
0
 10
0.001416
 20
-0.110228
 30
0.025254
 11
0.001447
 21
-0.110206
 31
0.009383
  0
LINE
  8
0
 10
0.008149
 20
-0.105182
 30
0.020507
 11
0.008089
 21
-0.105227
 31
0.009346
  0
LINE
  8
0
 10
-0.085674
 20
-0.175531
 30
0.01443
 11
-0.089563
 21
-0.178447
 31
0.009346
  0
LINE
  8
0
 10
-0.081875
 20
-0.172682
 30
0.009383
 11
-0.085674
 21
-0.175531
 31
0.01443
  0
LINE
  8
0
 10
-0.078135
 20
-0.169877
 30
0.014503
 11
-0.081875
 21
-0.172682
 31
0.009383
  0
LINE
  8
0
 10
-0.074186
 20
-0.166916
 30
0.009346
 11
-0.078135
 21
-0.169877
 31
0.014503
  0
LINE
  8
0
 10
-0.069069
 20
-0.16308
 30
0.01443
 11
-0.074186
 21
-0.166916
 31
0.009346
  0
LINE
  8
0
 10
-0.063236
 20
-0.158706
 30
0.009383
 11
-0.069069
 21
-0.16308
 31
0.01443
  0
LINE
  8
0
 10
-0.057521
 20
-0.154422
 30
0.01443
 11
-0.063236
 21
-0.158706
 31
0.009383
  0
LINE
  8
0
 10
-0.051747
 20
-0.150092
 30
0.009346
 11
-0.057521
 21
-0.154422
 31
0.01443
  0
LINE
  8
0
 10
-0.046541
 20
-0.146189
 30
0.014466
 11
-0.051747
 21
-0.150092
 31
0.009346
  0
LINE
  8
0
 10
-0.041186
 20
-0.142173
 30
0.009383
 11
-0.046541
 21
-0.146189
 31
0.014466
  0
LINE
  8
0
 10
-0.035532
 20
-0.137933
 30
0.014503
 11
-0.041186
 21
-0.142173
 31
0.009383
  0
LINE
  8
0
 10
-0.029728
 20
-0.133581
 30
0.009346
 11
-0.035532
 21
-0.137933
 31
0.014503
  0
LINE
  8
0
 10
-0.024762
 20
-0.129857
 30
0.014466
 11
-0.029728
 21
-0.133581
 31
0.009346
  0
LINE
  8
0
 10
-0.019675
 20
-0.126044
 30
0.009383
 11
-0.024762
 21
-0.129857
 31
0.014466
  0
LINE
  8
0
 10
-0.014469
 20
-0.12214
 30
0.014503
 11
-0.019675
 21
-0.126044
 31
0.009383
  0
LINE
  8
0
 10
-0.009114
 20
-0.118125
 30
0.009346
 11
-0.014469
 21
-0.12214
 31
0.014503
  0
LINE
  8
0
 10
-0.003789
 20
-0.114132
 30
0.014466
 11
-0.009114
 21
-0.118125
 31
0.009346
  0
LINE
  8
0
 10
0.001447
 20
-0.110206
 30
0.009383
 11
-0.003789
 21
-0.114132
 31
0.014466
  0
LINE
  8
0
 10
0.004678
 20
-0.107783
 30
0.01443
 11
0.001447
 21
-0.110206
 31
0.009383
  0
LINE
  8
0
 10
0.008089
 20
-0.105227
 30
0.009346
 11
0.004678
 21
-0.107783
 31
0.01443
  0
LINE
  8
0
 10
0.011409
 20
-0.102736
 30
0.014391
 11
0.008089
 21
-0.105227
 31
0.009346
  0
LINE
  8
0
 10
0.01488
 20
-0.100134
 30
0.009383
 11
0.011409
 21
-0.102736
 31
0.014391
  0
LINE
  8
0
 10
0.01482
 20
-0.100179
 30
0.014489
 11
0.01488
 21
-0.100134
 31
0.009383
  0
LINE
  8
0
 10
0.011319
 20
-0.102803
 30
0.009309
 11
0.01488
 21
-0.100134
 31
0.009383
  0
LINE
  8
0
 10
0.008089
 20
-0.105227
 30
0.009346
 11
0.011319
 21
-0.102803
 31
0.009309
  0
LINE
  8
0
 10
0.004709
 20
-0.107761
 30
0.009495
 11
0.008089
 21
-0.105227
 31
0.009346
  0
LINE
  8
0
 10
0.001447
 20
-0.110206
 30
0.009383
 11
0.004709
 21
-0.107761
 31
0.009495
  0
LINE
  8
0
 10
-0.003819
 20
-0.114154
 30
0.009309
 11
0.001447
 21
-0.110206
 31
0.009383
  0
LINE
  8
0
 10
-0.009114
 20
-0.118125
 30
0.009346
 11
-0.003819
 21
-0.114154
 31
0.009309
  0
LINE
  8
0
 10
-0.014499
 20
-0.122163
 30
0.009346
 11
-0.009114
 21
-0.118125
 31
0.009346
  0
LINE
  8
0
 10
-0.019675
 20
-0.126044
 30
0.009383
 11
-0.014499
 21
-0.122163
 31
0.009346
  0
LINE
  8
0
 10
-0.024762
 20
-0.129857
 30
0.009346
 11
-0.019675
 21
-0.126044
 31
0.009383
  0
LINE
  8
0
 10
-0.029728
 20
-0.133581
 30
0.009346
 11
-0.024762
 21
-0.129857
 31
0.009346
  0
LINE
  8
0
 10
-0.035561
 20
-0.137956
 30
0.009346
 11
-0.029728
 21
-0.133581
 31
0.009346
  0
LINE
  8
0
 10
-0.041186
 20
-0.142173
 30
0.009383
 11
-0.035561
 21
-0.137956
 31
0.009346
  0
LINE
  8
0
 10
-0.046602
 20
-0.146234
 30
0.009346
 11
-0.041186
 21
-0.142173
 31
0.009383
  0
LINE
  8
0
 10
-0.051747
 20
-0.150092
 30
0.009346
 11
-0.046602
 21
-0.146234
 31
0.009346
  0
LINE
  8
0
 10
-0.057552
 20
-0.154445
 30
0.009309
 11
-0.051747
 21
-0.150092
 31
0.009346
  0
LINE
  8
0
 10
-0.063236
 20
-0.158706
 30
0.009383
 11
-0.057552
 21
-0.154445
 31
0.009309
  0
LINE
  8
0
 10
-0.069069
 20
-0.16308
 30
0.009383
 11
-0.063236
 21
-0.158706
 31
0.009383
  0
LINE
  8
0
 10
-0.074186
 20
-0.166916
 30
0.009346
 11
-0.069069
 21
-0.16308
 31
0.009383
  0
LINE
  8
0
 10
-0.081875
 20
-0.172682
 30
0.009383
 11
-0.074186
 21
-0.166916
 31
0.009346
  0
LINE
  8
0
 10
-0.085644
 20
-0.175509
 30
0.009495
 11
-0.081875
 21
-0.172682
 31
0.009383
  0
LINE
  8
0
 10
-0.089563
 20
-0.178447
 30
0.009346
 11
-0.085644
 21
-0.175509
 31
0.009495
  0
LINE
  8
0
 10
-0.089503
 20
-0.178402
 30
0.014527
 11
-0.089563
 21
-0.178447
 31
0.009346
  0
LINE
  8
0
 10
-0.081875
 20
-0.172682
 30
0.02047
 11
-0.089503
 21
-0.178402
 31
0.014527
  0
LINE
  8
0
 10
-0.074186
 20
-0.166916
 30
0.025291
 11
-0.081875
 21
-0.172682
 31
0.02047
  0
LINE
  8
0
 10
-0.063205
 20
-0.158683
 30
0.031234
 11
-0.074186
 21
-0.166916
 31
0.025291
  0
LINE
  8
0
 10
-0.051688
 20
-0.150048
 30
0.035457
 11
-0.063205
 21
-0.158683
 31
0.031234
  0
LINE
  8
0
 10
-0.041186
 20
-0.142173
 30
0.037214
 11
-0.051688
 21
-0.150048
 31
0.035457
  0
LINE
  8
0
 10
-0.029668
 20
-0.133536
 30
0.037251
 11
-0.041186
 21
-0.142173
 31
0.037214
  0
LINE
  8
0
 10
-0.019645
 20
-0.126021
 30
0.03542
 11
-0.029668
 21
-0.133536
 31
0.037251
  0
LINE
  8
0
 10
-0.009085
 20
-0.118102
 30
0.031271
 11
-0.019645
 21
-0.126021
 31
0.03542
  0
LINE
  8
0
 10
0.001416
 20
-0.110228
 30
0.025254
 11
-0.009085
 21
-0.118102
 31
0.031271
  0
LINE
  8
0
 10
0.008149
 20
-0.105182
 30
0.020507
 11
0.001416
 21
-0.110228
 31
0.025254
  0
LINE
  8
0
 10
0.01482
 20
-0.100179
 30
0.014489
 11
0.008149
 21
-0.105182
 31
0.020507
  0
ENDSEC
  0
EOF
